0
SECTION
2
HEADER
9
$INSUNITS
70
4
9
$ACADVER
1
AC1014
9
$HANDSEED
5
FFFF
0
ENDSEC
0
SECTION
2
TABLES
0
TABLE
2
VPORT
5
8
100
AcDbSymbolTable
0
ENDTAB
0
TABLE
2
LTYPE
5
5
100
AcDbSymbolTable
0
LTYPE
5
14
100
AcDbSymbolTableRecord
100
AcDbLinetypeTableRecord
2
BYBLOCK
70
0
0
LTYPE
5
15
100
AcDbSymbolTableRecord
100
AcDbLinetypeTableRecord
2
BYLAYER
70
0
0
ENDTAB
0
TABLE
2
LAYER
5
2
100
AcDbSymbolTable
70
2
0
LAYER
5
50
100
AcDbSymbolTableRecord
100
AcDbLayerTableRecord
2
0
70
0
6
CONTINUOUS
0
ENDTAB
0
TABLE
2
STYLE
5
3
100
AcDbSymbolTable
70
1
0
STYLE
5
11
100
AcDbSymbolTableRecord
100
AcDbTextStyleTableRecord
2
STANDARD
70
0
0
ENDTAB
0
TABLE
2
VIEW
5
6
100
AcDbSymbolTable
70
0
0
ENDTAB
0
TABLE
2
UCS
5
7
100
AcDbSymbolTable
70
0
0
ENDTAB
0
TABLE
2
APPID
5
9
100
AcDbSymbolTable
70
2
0
APPID
5
12
100
AcDbSymbolTableRecord
100
AcDbRegAppTableRecord
2
ACAD
70
0
0
ENDTAB
0
TABLE
2
DIMSTYLE
5
A
100
AcDbSymbolTable
70
1
0
ENDTAB
0
TABLE
2
BLOCK_RECORD
5
1
100
AcDbSymbolTable
70
1
0
BLOCK_RECORD
5
1F
100
AcDbSymbolTableRecord
100
AcDbBlockTableRecord
2
*MODEL_SPACE
0
BLOCK_RECORD
5
1B
100
AcDbSymbolTableRecord
100
AcDbBlockTableRecord
2
*PAPER_SPACE
0
ENDTAB
0
ENDSEC
0
SECTION
2
BLOCKS
0
BLOCK
5
20
100
AcDbEntity
100
AcDbBlockBegin
2
*MODEL_SPACE
0
ENDBLK
5
21
100
AcDbEntity
100
AcDbBlockEnd
0
BLOCK
5
1C
100
AcDbEntity
100
AcDbBlockBegin
2
*PAPER_SPACE
0
ENDBLK
5
1D
100
AcDbEntity
100
AcDbBlockEnd
0
ENDSEC
0
SECTION
2
ENTITIES
0
LWPOLYLINE
5
100
100
AcDbEntity
8
0
100
AcDbPolyline
90
39
70
1
43
0.0
10
70.448221769551367
20
1020.0095161462846
10
92.798049902791746
20
1012.747616779741
10
92.798547462325587
20
1012.7483016116879
10
92.798599229119176
20
1012.748284791637
10
106.61155265658842
20
1031.7601841602934
10
98.521382713368411
20
1037.6380366833907
10
100.28423102378561
20
1040.0643892266671
10
108.37435908745491
20
1034.1865671317871
10
108.37486653330977
20
1034.1872655710877
10
108.37490841348597
20
1034.1872351433583
10
122.18786184108986
20
1053.1991345123117
10
108.37490841099111
20
1072.2110338790862
10
100.28473846756846
20
1066.3331813566122
10
98.521510581801053
20
1068.7600563399105
10
106.61100332807415
20
1074.6374168505245
10
106.61087545715446
20
1074.6375928497464
10
106.61155265416497
20
1074.6380848621743
10
92.798599223813554
20
1093.6499842291314
10
70.448771091477909
20
1086.3880848598708
10
70.448914959251283
20
1086.3876420803931
10
70.448221765598973
20
1086.3874168481223
10
73.538247841423328
20
1076.8772944649374
10
70.685771486316682
20
1075.9504687140222
10
67.595601542649959
20
1085.4610338767468
10
45.24577341006939
20
1078.1991345072656
10
45.245773410069425
20
1078.1986449825522
10
45.245224084337607
20
1078.1984664958022
10
45.245224085710369
20
1054.6984664957413
10
55.245224085710376
20
1054.6984664957408
10
55.245224085710447
20
1051.6991345074437
10
45.245773411650418
20
1051.6991345074439
10
45.245773411650454
20
1051.6984664957413
10
45.245224085710447
20
1051.6984664957413
10
45.245224087161581
20
1028.1984664958027
10
67.595052220617831
20
1020.9365671293189
10
67.595301000307472
20
1020.9373327944739
10
67.59560154661294
20
1020.9372351410598
10
70.685522711027531
20
1030.4470346388173
10
73.538391713155562
20
1029.5200813090601
0
LWPOLYLINE
5
101
100
AcDbEntity
8
0
100
AcDbPolyline
90
12
70
1
43
0.0
10
31.109721915583144
20
1058.4352967834056
10
31.109402308235872
20
1048.6386728865191
10
28.109402316220198
20
1048.6384540123929
10
28.109395971497193
20
1058.4352967834056
10
18.898317301824289
20
1058.4352967834056
10
18.896557839073662
20
1008.444155223637
10
27.559735523862301
20
1008.4403168631038
10
27.486125485931613
20
1018.4438617871729
10
30.582557765995588
20
1018.4389616214285
10
30.559735229400999
20
1008.4389876648711
10
38.887326167877738
20
1008.435297991456
10
38.898317301824285
20
1058.4352967834056
0
LWPOLYLINE
5
102
100
AcDbEntity
8
0
100
AcDbPolyline
90
39
70
1
43
0.0
10
50.378702726582674
20
937.3751167322223
10
72.728530859823053
20
930.11321736567868
10
72.729028419356965
20
930.11390219762563
10
72.729080186150483
20
930.11388537757466
10
86.542033613619722
20
949.12578474623092
10
78.451863670399717
20
955.00363726932824
10
80.214711980816915
20
957.42998981260484
10
88.304840044486212
20
951.55216771772473
10
88.305347490341077
20
951.55286615702505
10
88.305389370517275
20
951.55283572929602
10
102.11834279812116
20
970.56473509824923
10
88.305389368022418
20
989.57663446502363
10
80.215219424599766
20
983.69878194254966
10
78.45199153883236
20
986.12565692584803
10
86.541484285105454
20
992.00301743646207
10
86.541356414185771
20
992.0031934356839
10
86.542033611196274
20
992.00368544811181
10
72.729080180844861
20
1011.0155848150691
10
50.379252048509215
20
1003.7536854458085
10
50.37939591628259
20
1003.7532426663307
10
50.37870272263028
20
1003.7530174340598
10
53.468728798454634
20
994.24289505087495
10
50.616252443347989
20
993.31606929995974
10
47.526082499681266
20
1002.8266344626844
10
25.176254367100697
20
995.56473509320313
10
25.176254367100732
20
995.56424556848992
10
25.175705041368914
20
995.56406708173984
10
25.175705042741679
20
972.0640670816789
10
35.175705042741683
20
972.06406708167856
10
35.175705042741754
20
969.06473509338116
10
25.176254368681725
20
969.06473509338139
10
25.176254368681761
20
969.0640670816789
10
25.175705042741754
20
969.0640670816789
10
25.175705044192892
20
945.56406708174018
10
47.525533177649137
20
938.30216771525647
10
47.525781957338786
20
938.30293338041156
10
47.526082503644247
20
938.30283572699727
10
50.616003668058838
20
947.81263522475479
10
53.468872670186869
20
946.88568189499745
0
LWPOLYLINE
5
103
100
AcDbEntity
8
0
100
AcDbPolyline
90
39
70
1
43
0.0
10
149.54915371872968
20
1042.0316266352906
10
127.19932558548931
20
1049.2935260018344
10
127.19882802595542
20
1049.2928411698877
10
127.19877625916183
20
1049.2928579899383
10
113.38582283169259
20
1030.2809586212823
10
121.4759927749126
20
1024.4031060981849
10
119.71314446449547
20
1021.976753554908
10
111.62301640082617
20
1027.8545756497883
10
111.62250895497124
20
1027.853877210488
10
111.62246707479504
20
1027.8539076382172
10
97.809513647191153
20
1008.8420082692639
10
111.62246707728997
20
989.83010890248931
10
119.71263702071262
20
995.70796142496329
10
121.47586490648003
20
993.28108644166491
10
113.38637216020693
20
987.40372593105099
10
113.38650003112662
20
987.40354993182905
10
113.38582283411611
20
987.40305791940102
10
127.19877626446753
20
968.39115855244381
10
149.54860439680317
20
975.65305792170466
10
149.54846052902977
20
975.65350070118211
10
149.54915372268206
20
975.6537259334533
10
146.45912764685767
20
985.163848316638
10
149.31160400196435
20
986.09067406755332
10
152.40177394563108
20
976.58010890482853
10
174.75160207821165
20
983.84200827430982
10
174.75160207821162
20
983.84249779902325
10
174.75215140394343
20
983.84267628577322
10
174.75215140257066
20
1007.3426762858342
10
164.75215140257066
20
1007.3426762858343
10
164.7521514025706
20
1010.342008274132
10
174.75160207663063
20
1010.3420082741316
10
174.7516020766306
20
1010.342676285834
10
174.7521514025706
20
1010.342676285834
10
174.75215140111945
20
1033.842676285773
10
152.40232326766321
20
1041.1045756522567
10
152.40207448797355
20
1041.1038099871014
10
152.4017739416681
20
1041.1039076405157
10
149.31185277725351
20
1031.5941081427582
10
146.45898377512549
20
1032.5210614725154
0
LWPOLYLINE
5
104
100
AcDbEntity
8
0
100
AcDbPolyline
90
16
70
1
43
0.0
10
165.82448446997401
20
1078.2503144411064
42
0.19806610897789945
10
152.9519821674927
20
1086.4218492284067
10
128.33587635583427
20
1090.7627322898982
10
126.6687005925413
20
1081.3077087988243
10
136.34162305245957
20
1079.6023943608234
10
135.82094371411813
20
1076.647924353085
10
126.14773604488266
20
1078.3531720639571
10
124.86314893477612
20
1071.0679166219047
10
141.31483260905088
20
1068.166873617065
42
-0.19891308313462924
10
154.22464264244763
20
1059.9417330175838
10
163.77743602338083
20
1046.2977949680903
10
170.92433776849469
20
1051.3020206283827
10
165.1232346500112
20
1059.4521994839729
10
167.65977025766847
20
1061.2238440772442
10
173.38180825021823
20
1053.022729444963
10
180.16057256813937
20
1057.7691870785816
0
LWPOLYLINE
5
105
100
AcDbEntity
8
0
100
AcDbPolyline
90
12
70
1
43
0.0
10
248.93716344193436
20
1080.2621424032643
10
239.14053954504789
20
1080.2624620106117
10
239.1403206709216
20
1083.2624620026272
10
248.93716344193436
20
1083.2624683473503
10
248.93716344193436
20
1092.4735470170231
10
198.94602188216572
20
1092.4753064797737
10
198.94218352163256
20
1083.812128794985
10
208.94572844570155
20
1083.8857388329156
10
208.940828279957
20
1080.7893065528517
10
198.94085432339978
20
1080.8121290894464
10
198.93716464998462
20
1072.4845381509699
10
248.93716344193436
20
1072.4735470170231
0
LWPOLYLINE
5
106
100
AcDbEntity
8
0
100
AcDbPolyline
90
39
70
1
43
0.0
10
206.30509432814512
20
992.48760452519093
10
228.65492246138552
20
985.22570515864732
10
228.65542002091934
20
985.22638999059427
10
228.65547178771294
20
985.2263731705433
10
242.46842521518218
20
1004.2382725391997
10
234.37825527196219
20
1010.116125062297
10
236.14110358237937
20
1012.5424776055735
10
244.23123164604868
20
1006.6646555106935
10
244.23173909190353
20
1006.6653539499939
10
244.23178097207972
20
1006.6653235222647
10
258.04473439968365
20
1025.677222891218
10
244.23178096958486
20
1044.6891222579925
10
236.14161102616214
20
1038.8112697355184
10
234.37838314039482
20
1041.2381447188168
10
242.46787588666791
20
1047.1155052294307
10
242.46774801574821
20
1047.1156812286526
10
242.46842521275875
20
1047.1161732410806
10
228.65547178240732
20
1066.1280726080377
10
206.30564365007166
20
1058.8661732387773
10
206.30578751784503
20
1058.8657304592996
10
206.30509432419268
20
1058.8655052270285
10
209.39512040001702
20
1049.3553828438437
10
206.54264404491045
20
1048.4285570929285
10
203.45247410124372
20
1057.939122255653
10
181.10264596866307
20
1050.6772228861719
10
181.10264596866307
20
1050.6767333614587
10
181.10209664293131
20
1050.6765548747085
10
181.10209664430414
20
1027.1765548746475
10
191.10209664430408
20
1027.1765548746473
10
191.1020966443042
20
1024.1772228863499
10
181.10264597024417
20
1024.1772228863501
10
181.10264597024425
20
1024.1765548746478
10
181.1020966443042
20
1024.1765548746478
10
181.10209664575535
20
1000.6765548747089
10
203.45192477921159
20
993.41465550822522
10
203.45217355890122
20
993.4154211733802
10
203.4524741052067
20
993.41532351996602
10
206.5423952696213
20
1002.9251230177236
10
209.39526427174934
20
1001.9981696879663
0
LWPOLYLINE
5
107
100
AcDbEntity
8
0
100
AcDbPolyline
90
39
70
1
43
0.0
10
297.63765469529221
20
1086.3887331619835
10
275.28782656205181
20
1093.6506325285272
10
275.28732900251788
20
1093.6499476965803
10
275.28727723572439
20
1093.6499645166309
10
261.47432380825512
20
1074.6380651479749
10
269.56449375147514
20
1068.7602126248776
10
267.80164544105799
20
1066.333860081601
10
259.7115173773887
20
1072.211682176481
10
259.71100993153379
20
1072.2109837371806
10
259.71096805135755
20
1072.2110141649096
10
245.89801462375368
20
1053.1991147959566
10
259.71096805385241
20
1034.1872154291821
10
267.80113799727519
20
1040.0650679516561
10
269.56436588304257
20
1037.6381929683578
10
261.47487313676942
20
1031.7608324577438
10
261.47500100768912
20
1031.7606564585217
10
261.47432381067864
20
1031.7601644460938
10
275.28727724103004
20
1012.7482650791367
10
297.63710537336567
20
1020.0101644483973
10
297.6369615055923
20
1020.010607227875
10
297.63765469924465
20
1020.010832460146
10
294.54762862342028
20
1029.5209548433306
10
297.40010497852688
20
1030.4477805942461
10
300.49027492219363
20
1020.9372154315214
10
322.8401030547742
20
1028.1991148010027
10
322.84010305477415
20
1028.1996043257159
10
322.84065238050607
20
1028.1997828124659
10
322.84065237913319
20
1051.699782812527
10
312.8406523791333
20
1051.699782812527
10
312.84065237913319
20
1054.6991148008246
10
322.84010305319322
20
1054.6991148008244
10
322.84010305319316
20
1054.699782812527
10
322.84065237913319
20
1054.699782812527
10
322.84065237768198
20
1078.1997828124659
10
300.49082424422573
20
1085.4616821789493
10
300.49057546453605
20
1085.4609165137942
10
300.49027491823063
20
1085.4610141672085
10
297.40035375381603
20
1075.9512146694508
10
294.54748475168805
20
1076.8781679992082
0
LWPOLYLINE
5
108
100
AcDbEntity
8
0
100
AcDbPolyline
90
39
70
1
43
0.0
10
255.89799508180434
20
970.0226157493056
10
245.89854440774431
20
970.02261574930583
10
245.89854440774434
20
970.02194773760323
10
245.89799508180437
20
970.02194773760323
10
245.89799508325552
20
946.52194773766439
10
268.24782321671171
20
939.2600483711808
10
268.24807199640139
20
939.260814036336
10
268.24837254270687
20
939.26071638292171
10
271.33829370712141
20
948.77051588067934
10
274.19116270924945
20
947.84356255092189
10
271.10099276564529
20
938.33299738814674
10
293.45082089888569
20
931.07109802160312
10
293.45131845841951
20
931.07178285354985
10
293.45137022521311
20
931.0717660334991
10
307.26432365268232
20
950.08366540215536
10
299.17415370946236
20
955.96151792525256
10
300.93700201987957
20
958.3878704685294
10
309.02713008354885
20
952.51004837364917
10
309.02763752940365
20
952.51074681294949
10
309.02767940957989
20
952.51071638522035
10
322.84063283718382
20
971.52261575417367
10
309.02767940708509
20
990.53451512094807
10
300.93750946366237
20
984.6566625984741
10
299.17428157789493
20
987.08353758177259
10
307.26377432416808
20
992.96089809238651
10
307.26364645324844
20
992.96107409160857
10
307.26432365025892
20
992.96156610403625
10
293.45137021990746
20
1011.9734654709936
10
271.10154208757189
20
1004.711566101733
10
271.10168595534526
20
1004.7111233222552
10
271.10099276169291
20
1004.7108980899841
10
274.19101883751722
20
995.2007757067995
10
271.33854248241062
20
994.27394995588418
10
268.24837253874392
20
1003.7845151186089
10
245.89854440616332
20
996.52261574912757
10
245.89854440616332
20
996.52212622441425
10
245.89799508043154
20
996.52194773766428
10
245.89799508180431
20
973.02194773760334
10
255.89799508180431
20
973.02194773760311
0
LWPOLYLINE
5
109
100
AcDbEntity
8
0
100
AcDbPolyline
90
39
70
1
43
0.0
10
170.64420039107645
20
953.28893033005795
10
163.38230102453281
20
930.93910219681766
10
163.38298585647971
20
930.93860463728356
10
163.38296903642885
20
930.93855287049007
10
182.39486840508502
20
917.12559944302097
10
188.27272092818231
20
925.21576938624082
10
190.69907347145903
20
923.45292107582372
10
184.82125137657897
20
915.3627930121545
10
184.82194981587929
20
915.36228556629953
10
184.82191938815018
20
915.36224368612352
10
203.83381875710344
20
901.54929025851948
10
222.84571812387779
20
915.36224368861804
10
216.96786560140382
20
923.45241363204093
10
219.39474058470222
20
925.21564151780819
10
225.27210109531623
20
917.12614877153533
10
225.2722770945382
20
917.12627664245485
10
225.27276910696611
20
917.12559944544432
10
244.28466847392326
20
930.93855287579572
10
237.02276910466256
20
953.2883810081313
10
237.02232632518496
20
953.28823714035809
10
237.02210109291397
20
953.2889303340105
10
227.51197870972919
20
950.19890425818619
10
226.58515295881398
20
953.05138061329262
10
236.09571812153848
20
956.14155055695949
10
228.8338187520574
20
978.49137868953994
10
228.83332922734405
20
978.49137868954006
10
228.83315074059408
20
978.49192801527181
10
205.33315074053309
20
978.49192801389904
10
205.3331507405328
20
968.49192801389904
10
202.33381875223532
20
968.49192801389893
10
202.33381875223552
20
978.4913786879589
10
202.33315074053303
20
978.4913786879589
10
202.33315074053303
20
978.49192801389881
10
178.83315074059425
20
978.49192801244783
10
171.57125137411055
20
956.14209987899153
10
171.57201703926575
20
956.1418510993019
10
171.57191938585152
20
956.14155055299648
10
181.08171888360908
20
953.05162938858189
10
180.15476555385169
20
950.19876038645384
0
LWPOLYLINE
5
110
100
AcDbEntity
8
0
100
AcDbPolyline
90
39
70
1
43
0.0
10
114.1688028242389
20
883.46963984420142
10
136.51863095747927
20
876.20774047765781
10
136.51912851701323
20
876.20842530960454
10
136.51918028380675
20
876.20840848955379
10
150.33213371127599
20
895.22030785821005
10
142.24196376805597
20
901.09816038130714
10
144.00481207847318
20
903.52451292458397
10
152.09494014214246
20
897.64669082970386
10
152.09544758799734
20
897.64738926900418
10
152.09548946817353
20
897.64735884127515
10
165.90844289577743
20
916.65925821022824
10
152.09548946567867
20
935.67115757700276
10
144.00531952225603
20
929.79330505452867
10
142.24209163648862
20
932.22018003782728
10
150.33158438276172
20
938.09754054844109
10
150.33145651184202
20
938.09771654766314
10
150.33213370885252
20
938.09820856009094
10
136.51918027850112
20
957.11010792704826
10
114.16935214616547
20
949.84820855778753
10
114.16949601393884
20
949.84776577830985
10
114.16880282028654
20
949.84754054603877
10
117.25882889611088
20
940.33741816285419
10
114.40635254100425
20
939.41059241193886
10
111.31618259733753
20
948.92115757466343
10
88.966354464756961
20
941.65925820518225
10
88.966354464756989
20
941.65876868046894
10
88.965805139025179
20
941.65859019371896
10
88.965805140397947
20
918.15859019365803
10
98.965805140397904
20
918.1585901936578
10
98.965805140397975
20
915.15925820536029
10
88.966354466337947
20
915.15925820536052
10
88.966354466337975
20
915.15859019365791
10
88.965805140397975
20
915.15859019365791
10
88.965805141849117
20
891.65859019371908
10
111.31563327530536
20
884.39669082723549
10
111.315882054995
20
884.39745649239069
10
111.31618260130047
20
884.39735883897629
10
114.40610376571506
20
893.90715833673403
10
117.25897276784309
20
892.98020500697658
0
LWPOLYLINE
5
111
100
AcDbEntity
8
0
100
AcDbPolyline
90
39
70
1
43
0.0
10
46.190104093770188
20
835.3279975915973
10
68.539932227010567
20
828.06609822505368
10
68.540429786544479
20
828.06678305700063
10
68.540481553337997
20
828.06676623694966
10
82.353434980807236
20
847.07866560560592
10
74.263265037587232
20
852.95651812870324
10
76.026113348004429
20
855.38287067197984
10
84.116241411673727
20
849.50504857709973
10
84.116748857528592
20
849.50574701640005
10
84.11679073770479
20
849.50571658867102
10
97.929744165308676
20
868.51761595762423
10
84.116790735209932
20
887.52951532439863
10
76.026620791787209
20
881.65166280192466
10
74.263392906019874
20
884.07853778522303
10
82.352885652292969
20
889.95589829583696
10
82.352757781373285
20
889.9560742950589
10
82.353434978383788
20
889.95656630748681
10
68.540481548032375
20
908.96846567444413
10
46.19065341569673
20
901.7065663051834
10
46.190797283470104
20
901.70612352570572
10
46.190104089817723
20
901.70589829343476
10
49.280130165642078
20
892.19577591024995
10
46.427653810535503
20
891.26895015933474
10
43.33748386686878
20
900.7795153220593
10
20.98765573428814
20
893.51761595257813
10
20.98765573428814
20
893.51712642786481
10
20.987106408556357
20
893.51694794111484
10
20.987106409929194
20
870.0169479410539
10
30.987106409929126
20
870.01694794105356
10
30.987106409929268
20
867.01761595275616
10
20.987655735869239
20
867.01761595275639
10
20.987655735869311
20
867.01694794105379
10
20.987106409929268
20
867.01694794105379
10
20.987106411380406
20
843.51694794111495
10
43.336934544836652
20
836.25504857463147
10
43.337183324526265
20
836.25581423978656
10
43.337483870831761
20
836.25571658637227
10
46.427405035246352
20
845.76551608412979
10
49.280274037374383
20
844.83856275437245
0
LWPOLYLINE
5
112
100
AcDbEntity
8
0
100
AcDbPolyline
90
39
70
1
43
0.0
10
206.89847811720762
20
828.31764196008692
10
229.24830625044797
20
821.0557425935433
10
229.24880380998189
20
821.05642742549003
10
229.24885557677541
20
821.05641060543928
10
243.06180900424465
20
840.06830997409554
10
234.97163906102463
20
845.94616249719274
10
236.73448737144184
20
848.37251504046958
10
244.82461543511113
20
842.49469294558935
10
244.82512288096601
20
842.49539138488967
10
244.82516476114222
20
842.49536095716053
10
258.63811818874609
20
861.50726032611385
10
244.82516475864736
20
880.51915969288825
10
236.73499481522464
20
874.64130717041428
10
234.97176692945729
20
877.06818215371277
10
243.06125967573038
20
882.94554266432669
10
243.06113180481071
20
882.94571866354875
10
243.06180900182119
20
882.94621067597643
10
229.24885557146979
20
901.95811004293375
10
206.89902743913416
20
894.69621067367314
10
206.89917130690753
20
894.69576789419534
10
206.89847811325512
20
894.69554266192426
10
209.98850418907949
20
885.18542027873968
10
207.13602783397292
20
884.25859452782436
10
204.04585789030619
20
893.76915969054903
10
181.69602975772557
20
886.50726032106775
10
181.69602975772557
20
886.50677079635454
10
181.69548043199376
20
886.50659230960446
10
181.69548043336661
20
863.00659230954352
10
191.69548043336653
20
863.00659230954329
10
191.6954804333667
20
860.00726032124578
10
181.69602975930667
20
860.00726032124601
10
181.69602975930673
20
860.00659230954352
10
181.6954804333667
20
860.00659230954352
10
181.69548043481782
20
836.50659230960491
10
204.04530856827407
20
829.24469294312098
10
204.04555734796367
20
829.24545860827618
10
204.04585789426918
20
829.24536095486189
10
207.13577905868377
20
838.75516045261952
10
209.98864806081178
20
837.82820712286207
0
LWPOLYLINE
5
113
100
AcDbEntity
8
0
100
AcDbPolyline
90
39
70
1
43
0.0
10
297.63762417771409
20
923.03542098750427
10
275.28779604447368
20
930.29732035404788
10
275.28729848493975
20
930.29663552210093
10
275.28724671814621
20
930.2966523421519
10
261.474293290677
20
911.28475297349564
10
269.56446323389696
20
905.40690045039833
10
267.8016149234798
20
902.9805479071216
10
259.71148685981052
20
908.85837000200183
10
259.71097941395567
20
908.85767156270151
10
259.71093753377943
20
908.85770199043031
10
245.89798410617556
20
889.84580262147733
10
259.71093753627423
20
870.83390325470293
10
267.80110747969695
20
876.7117557771769
10
269.56433536546439
20
874.28488079387853
10
261.47484261919124
20
868.40752028326449
10
261.47497049011093
20
868.40734428404267
10
261.47429329310046
20
868.40685227161453
10
275.28724672345186
20
849.39495290465743
10
297.63707485578749
20
856.65685227391805
10
297.63693098801411
20
856.65729505339584
10
297.63762418166647
20
856.65752028566681
10
294.5475981058421
20
866.16764266885161
10
297.4000744609487
20
867.09446841976683
10
300.49024440461545
20
857.58390325704215
10
322.84007253719608
20
864.84580262652344
10
322.84007253719602
20
864.84629215123675
10
322.84062186292783
20
864.84647063798673
10
322.84062186155501
20
888.34647063804766
10
312.84062186155506
20
888.34647063804778
10
312.84062186155501
20
891.34580262634563
10
322.84007253561504
20
891.34580262634518
10
322.84007253561492
20
891.34647063804766
10
322.84062186155501
20
891.34647063804766
10
322.84062186010374
20
914.8464706379865
10
300.49079372664755
20
922.10837000447009
10
300.49054494695793
20
922.107604339315
10
300.49024440065244
20
922.10770199272918
10
297.40032323623785
20
912.59790249497178
10
294.54745423410986
20
913.524855824729
0
LWPOLYLINE
5
114
100
AcDbEntity
8
0
100
AcDbPolyline
90
16
70
1
43
0.0
10
341.96688752053365
20
938.97258889428372
42
0.1980661089778985
10
350.13842230783382
20
951.84509119676488
10
354.47930536932523
20
976.46119700842348
10
345.02428187825132
20
978.12837277171639
10
343.31896744025028
20
968.45545031179813
10
340.36449743251217
20
968.97612965013946
10
342.06974514338435
20
978.64933731937504
10
334.78448970133172
20
979.93392442948152
10
331.88344669649211
20
963.4822407552067
42
-0.19891308313463399
10
323.65830609701095
20
950.57243072181006
10
310.01436804751711
20
941.0196373408769
10
315.01859370780966
20
933.87273559576306
10
323.1687725633999
20
939.67383871424647
10
324.94041715667117
20
937.13730310658912
10
316.73930252439004
20
931.41526511403958
10
321.48576015800842
20
924.63650079611841
0
LWPOLYLINE
5
115
100
AcDbEntity
8
0
100
AcDbPolyline
90
16
70
1
43
0.0
10
339.67919831154927
20
1001.8624509548306
42
0.19806610897789975
10
347.85073309884956
20
1014.7349532573119
10
352.19161616034091
20
1039.3510590689702
10
342.736592669267
20
1041.0182348322633
10
341.03127823126601
20
1031.345312372345
10
338.07680822352785
20
1031.8659917106866
10
339.78205593439998
20
1041.5391993799219
10
332.4968004923474
20
1042.8237864900284
10
329.5957574875078
20
1026.3721028157538
42
-0.19891308313463571
10
321.37061688802657
20
1013.4622927823569
10
307.72667883853279
20
1003.9094994014238
10
312.73090449882534
20
996.76259765630994
10
320.88108335441564
20
1002.5637007747933
10
322.65272794768686
20
1000.027165167136
10
314.45161331540567
20
994.30512717458623
10
319.1980709490241
20
987.52636285666529
0
LWPOLYLINE
5
116
100
AcDbEntity
8
0
100
AcDbPolyline
90
16
70
1
43
0.0
10
378.71164866962215
20
996.51102578393204
42
0.1980661089778985
10
386.88318345692238
20
1009.3835280864132
10
391.22406651841391
20
1033.9996338980718
10
381.76904302733988
20
1035.6668096613648
10
380.06372858933889
20
1025.9938872014466
10
377.10925858160073
20
1026.5145665397879
10
378.81450629247291
20
1036.1877742090232
10
371.52925085042034
20
1037.47236131913
10
368.62820784558062
20
1021.0206776448553
42
-0.19891308313463849
10
360.40306724609962
20
1008.1108676114587
10
346.75912919660561
20
998.55807423052522
10
351.76335485689822
20
991.4111724854115
10
359.91353371248852
20
997.21227560389491
10
361.68517830575973
20
994.67573999623755
10
353.48406367347866
20
988.95370200368802
10
358.23052130709698
20
982.17493768576674
0
LWPOLYLINE
5
117
100
AcDbEntity
8
0
100
AcDbPolyline
90
16
70
1
43
0.0
10
342.14277016869767
20
1061.6974598101954
42
0.19806610897789936
10
355.01527247117895
20
1053.5259250228953
10
379.63137828283726
20
1049.1850419614038
10
381.29855404613033
20
1058.640065452478
10
371.62563158621202
20
1060.3453798904789
10
372.1463109245534
20
1063.299849898217
10
381.81951859378893
20
1061.5946021873449
10
383.10410570389541
20
1068.8798576293973
10
366.65242202962077
20
1071.780900634237
42
-0.19891308313463399
10
353.74261199622401
20
1080.0060412337182
10
344.18981861529085
20
1093.6499792832121
10
337.04291687017695
20
1088.6457536229195
10
342.84401998866036
20
1080.4955747673293
10
340.30748438100312
20
1078.7239301740581
10
334.58544638845342
20
1086.9250448063392
10
327.80668207053225
20
1082.1785871727207
0
LWPOLYLINE
5
118
100
AcDbEntity
8
0
100
AcDbPolyline
90
16
70
1
43
0.0
10
370.48918751201836
20
983.00453818091171
42
0.19806610897789975
10
362.31765272471813
20
970.13203587843032
10
357.97676966322678
20
945.51593006677194
10
367.43179315430069
20
943.84875430347893
10
369.13710759230173
20
953.52167676339729
10
372.09157760003984
20
953.00099742505586
10
370.38632988916777
20
943.3277897558205
10
377.67158533122023
20
942.04320264571379
10
380.57262833605989
20
958.4948863199885
42
-0.19891308313463502
10
388.79776893554094
20
971.40469635338536
10
402.44170698503495
20
980.95748973431853
10
397.43748132474246
20
988.10439147943248
10
389.28730246915211
20
982.30328836094895
10
387.51565787588083
20
984.8398239686062
10
395.71677250816208
20
990.56186196115607
10
390.97031487454365
20
997.34062627907701
0
LWPOLYLINE
5
119
100
AcDbEntity
8
0
100
AcDbPolyline
90
18
70
1
43
0.0
10
342.70932097556005
20
923.81252157934921
42
0.19806610897789975
10
334.53778618825982
20
910.94001927686793
10
330.19690312676846
20
886.32391346520944
10
330.19741222405059
20
886.32382277913371
10
339.65192661784243
20
884.65673770191654
10
341.35724105584347
20
894.32966016183491
10
344.31171106358147
20
893.80898082349336
10
342.6064633527094
20
884.13577315425778
10
349.89128301883738
20
882.85126187224682
10
349.89171879476191
20
882.85118604415129
10
352.79276179960164
20
899.30286971842611
42
-0.19891308313463085
10
361.01790239908274
20
912.21267975182286
10
374.66184044857664
20
921.76547313275603
10
369.65761478828404
20
928.91237487786998
10
361.50743593269374
20
923.11127175938645
10
359.73579133942252
20
925.64780736704381
10
367.93690597170377
20
931.36984535959346
10
363.19044833808528
20
938.14860967751451
0
LWPOLYLINE
5
120
100
AcDbEntity
8
0
100
AcDbPolyline
90
16
70
1
43
0.0
10
394.15442821063783
20
897.19518410912747
42
0.19806610897789867
10
402.32596299793812
20
910.06768641160863
10
406.66684605942947
20
934.68379222326712
10
397.2118225683555
20
936.35096798656014
10
395.50650813035452
20
926.67804552664177
10
392.55203812261641
20
927.19872486498321
10
394.25728583348848
20
936.87193253421867
10
386.97203039143602
20
938.15651964432516
10
384.07098738659636
20
921.70483597005045
42
-0.19891308313463837
10
375.84584678711514
20
908.79502593665381
10
362.20190873762135
20
899.24223255572065
10
367.20613439791384
20
892.0953308106067
10
375.35631325350414
20
897.89643392909011
10
377.12795784677542
20
895.35989832143287
10
368.92684321449423
20
889.63786032888322
10
373.67330084811266
20
882.85909601096205
0
LWPOLYLINE
5
121
100
AcDbEntity
8
0
100
AcDbPolyline
90
12
70
1
43
0.0
10
416.57170508636989
20
941.78058456425049
10
416.5720246937172
20
951.57720846113705
10
419.57202468573286
20
951.57742733526334
10
419.57203103045583
20
941.78058456425049
10
428.7831097001287
20
941.78058456425049
10
428.78486916287932
20
991.7717261240191
10
420.12169147809072
20
991.77556448455221
10
420.1953015160214
20
981.77201956048316
10
417.09886923595747
20
981.77691972622779
10
417.12169177255203
20
991.77689368278504
10
408.79410083407538
20
991.78058335620017
10
408.7831097001287
20
941.78058456425049
0
LWPOLYLINE
5
122
100
AcDbEntity
8
0
100
AcDbPolyline
90
12
70
1
43
0.0
10
405.35594580902597
20
1003.33978357955
10
405.35626541637328
20
1013.1364074764366
10
408.35626540838894
20
1013.1366263505628
10
408.35627175311203
20
1003.33978357955
10
417.56735042278484
20
1003.33978357955
10
417.56910988553551
20
1053.3309251393187
10
408.90593220074692
20
1053.3347634998518
10
408.9795422386776
20
1043.3312185757827
10
405.88310995861366
20
1043.3361187415273
10
405.90593249520822
20
1053.3360926980845
10
397.57834155673152
20
1053.3397823714997
10
397.56735042278484
20
1003.33978357955
0
LWPOLYLINE
5
123
100
AcDbEntity
8
0
100
AcDbPolyline
90
12
70
1
43
0.0
10
431.70061133636978
20
998.1241667175708
10
431.70093094371708
20
1007.9207906144572
10
434.70093093573274
20
1007.9210094885836
10
434.70093728045572
20
998.12416671757092
10
443.91201595012859
20
998.1241667175708
10
443.9137754128792
20
1048.1153082773394
10
435.25059772809067
20
1048.1191466378727
10
435.32420776602129
20
1038.1156017138035
10
432.2277754859573
20
1038.1205018795481
10
432.25059802255191
20
1048.1204758361055
10
423.92300708407515
20
1048.1241655095205
10
423.91201595012859
20
998.1241667175708
0
LWPOLYLINE
5
124
100
AcDbEntity
8
0
100
AcDbPolyline
90
12
70
1
43
0.0
10
439.39006464636145
20
1067.4665872885182
10
429.59344074947495
20
1067.4669068958656
10
429.59322187534866
20
1070.4669068878811
10
439.39006464636145
20
1070.4669132326042
10
439.39006464636145
20
1079.677991902277
10
389.39892308659284
20
1079.6797513650276
10
389.39508472605962
20
1071.0165736802392
10
399.39862965012867
20
1071.0901837181698
10
399.3937294843841
20
1067.9937514381058
10
389.39375552782684
20
1068.0165739747006
10
389.39006585441172
20
1059.6889830362238
10
439.39006464636145
20
1059.677991902277
0
LWPOLYLINE
5
125
100
AcDbEntity
8
0
100
AcDbPolyline
90
12
70
1
43
0.0
10
458.0517160726979
20
1039.4692798360607
10
458.05203568004515
20
1049.2659037329472
10
461.05203567206081
20
1049.2661226070734
10
461.05204201678384
20
1039.4692798360607
10
470.26312068645672
20
1039.4692798360607
10
470.26488014920739
20
1089.4604213958291
10
461.60170246441874
20
1089.4642597563625
10
461.67531250234947
20
1079.4607148322934
10
458.57888022228542
20
1079.4656149980381
10
458.60170275888009
20
1089.4655889545952
10
450.27411182040333
20
1089.4692786280102
10
450.26312068645672
20
1039.4692798360607
0
LWPOLYLINE
5
126
100
AcDbEntity
8
0
100
AcDbPolyline
90
12
70
1
43
0.0
10
458.04396460785426
20
983.12237635298754
10
458.04428421520151
20
992.91900024987399
10
461.04428420721717
20
992.91921912400028
10
461.04429055194021
20
983.12237635298743
10
470.25536922161308
20
983.12237635298754
10
470.25712868436369
20
1033.1135179127562
10
461.5939509995751
20
1033.1173562732893
10
461.66756103750578
20
1023.1138113492203
10
458.57112875744178
20
1023.1187115149648
10
458.59395129403646
20
1033.1186854715222
10
450.26636035555958
20
1033.1223751449372
10
450.25536922161308
20
983.12237635298754
0
LWPOLYLINE
5
127
100
AcDbEntity
8
0
100
AcDbPolyline
90
12
70
1
43
0.0
10
442.91502784027608
20
926.77875859582605
10
442.91534744762339
20
936.57538249271261
10
445.91534743963899
20
936.57560136683878
10
445.91535378436208
20
926.77875859582605
10
455.12643245403495
20
926.77875859582605
10
455.12819191678557
20
976.76990015559454
10
446.46501423199697
20
976.77373851612788
10
446.5386242699276
20
966.77019359205883
10
443.44219198986366
20
966.77509375780346
10
443.46501452645828
20
976.7750677143606
10
435.13742358798152
20
976.77875738777573
10
435.1264324540349
20
926.77875859582605
0
LWPOLYLINE
5
128
100
AcDbEntity
8
0
100
AcDbPolyline
90
12
70
1
43
0.0
10
453.71311547027074
20
920.42874567663489
10
453.71279586292354
20
910.63212177974833
10
450.71279587090777
20
910.63190290562204
10
450.71278952618479
20
920.42874567663489
10
441.50171085651186
20
920.42874567663489
10
441.49995139376125
20
870.43760411686617
10
450.1631290785499
20
870.43376575633317
10
450.08951904061917
20
880.43731068040211
10
453.18595132068316
20
880.4324105146577
10
453.1631287840886
20
870.43243655810033
10
461.49071972256536
20
870.4287468846851
10
461.50171085651186
20
920.42874567663489
0
LWPOLYLINE
5
129
100
AcDbEntity
8
0
100
AcDbPolyline
90
16
70
1
43
0.0
10
421.53826813576802
20
882.00991189233059
42
0.19806610897789867
10
429.70980292306825
20
894.88241419481187
10
434.05068598455966
20
919.49852000647024
10
424.59566249348569
20
921.16569576976326
10
422.89034805548476
20
911.49277330984501
10
419.93587804774654
20
912.01345264818633
10
421.64112575861873
20
921.68666031742191
10
414.35587031656615
20
922.97124742752862
10
411.45482731172655
20
906.51956375325369
42
-0.19891308313463779
10
403.22968671224544
20
893.60975371985705
10
389.58574866275148
20
884.05696033892366
10
394.58997432304409
20
876.91005859380994
10
402.74015317863427
20
882.71116171229335
10
404.51179777190555
20
880.1746261046361
10
396.31068313962442
20
874.45258811208635
10
401.05714077324285
20
867.67382379416517
0
LWPOLYLINE
5
130
100
AcDbEntity
8
0
100
AcDbPolyline
90
12
70
1
43
0.0
10
449.28166602386989
20
814.08760665897705
10
449.28198563121714
20
823.8842305558635
10
452.28198562323269
20
823.88444942998967
10
452.28199196795572
20
814.08760665897694
10
461.49307063762865
20
814.08760665897705
10
461.49483010037926
20
864.07874821874566
10
452.83165241559061
20
864.08258657927877
10
452.90526245352135
20
854.07904165520972
10
449.8088301734573
20
854.08394182095435
10
449.83165271005197
20
864.08391577751161
10
441.50406177157521
20
864.08760545092673
10
441.49307063762865
20
814.08760665897705
0
LWPOLYLINE
5
131
100
AcDbEntity
8
0
100
AcDbPolyline
90
12
70
1
43
0.0
10
422.93663428558864
20
816.7479917908131
10
422.93695389293589
20
826.54461568769966
10
425.93695388495149
20
826.54483456182584
10
425.93696022967447
20
816.7479917908131
10
435.1480388993474
20
816.7479917908131
10
435.14979836209807
20
866.7391333505816
10
426.48662067730936
20
866.74297171111471
10
426.5602307152401
20
856.73942678704577
10
423.4637984351761
20
856.7443269527904
10
423.48662097177078
20
866.74430090934766
10
415.15903003329402
20
866.74799058276278
10
415.1480388993474
20
816.7479917908131
0
LWPOLYLINE
5
132
100
AcDbEntity
8
0
100
AcDbPolyline
90
16
70
1
43
0.0
10
378.71159780699202
20
833.1576932644009
42
0.19806610897789975
10
386.88313259429231
20
846.03019556688218
10
391.22401565578366
20
870.64630137854067
10
381.76899216470974
20
872.31347714183357
10
380.0636777267087
20
862.64055468191532
10
377.10920771897059
20
863.16123402025687
10
378.81445542984267
20
872.83444168949234
10
371.52919998779009
20
874.11902879959871
10
368.62815698295049
20
857.66734512532412
42
-0.1989130831346326
10
360.40301638346938
20
844.75753509192714
10
346.75907833397548
20
835.20474171099409
10
351.76330399426803
20
828.05783996588025
10
359.91348284985833
20
833.85894308436366
10
361.68512744312955
20
831.3224074767063
10
353.4840128108483
20
825.60036948415654
10
358.23047044446685
20
818.8216051662356
0
LWPOLYLINE
5
133
100
AcDbEntity
8
0
100
AcDbPolyline
90
16
70
1
43
0.0
10
339.67920848407528
20
838.50914895287724
42
0.19806610897789975
10
347.85074327137556
20
851.38165125535863
10
352.19162633286703
20
875.99775706701723
10
342.736602841793
20
877.66493283030991
10
341.03128840379202
20
867.99201037039188
10
338.07681839605385
20
868.51268970873321
10
339.78206610692604
20
878.18589737796867
10
332.49681066487346
20
879.47048448807527
10
329.59576766003374
20
863.01880081380045
42
-0.19891308313464021
10
321.37062706055258
20
850.10899078040381
10
307.7266890110588
20
840.55619739947065
10
312.73091467135134
20
833.4092956543567
10
320.88109352694164
20
839.21039877284011
10
322.65273812021286
20
836.67386316518287
10
314.45162348793173
20
830.95182517263322
10
319.19808112155016
20
824.17306085471205
0
LWPOLYLINE
5
134
100
AcDbEntity
8
0
100
AcDbPolyline
90
39
70
1
43
0.0
10
271.10099276564512
20
774.97971064498279
10
293.45082089888552
20
767.71781127843906
10
293.45131845841939
20
767.71849611038579
10
293.45137022521294
20
767.71847929033493
10
307.26432365268215
20
786.73037865899119
10
299.17415370946219
20
792.6082311820885
10
300.93700201987934
20
795.03458372536534
10
309.02713008354863
20
789.15676163048511
10
309.02763752940353
20
789.15746006978554
10
309.02767940957978
20
789.15742964205629
10
322.84063283718359
20
808.16932901100949
10
309.02767940708486
20
827.18122837778401
10
300.9375094636622
20
821.30337585530992
10
299.17428157789482
20
823.73025083860853
10
307.26377432416791
20
829.60761134922245
10
307.26364645324821
20
829.6077873484445
10
307.26432365025869
20
829.6082793608723
10
293.45137021990735
20
848.62017872782963
10
271.10154208757166
20
841.35827935856901
10
271.10168595534503
20
841.3578365790911
10
271.10099276169268
20
841.35761134682014
10
274.19101883751711
20
831.84748896363533
10
271.33854248241045
20
830.92066321272023
10
268.24837253874369
20
840.4312283754449
10
245.8985444061631
20
833.16932900596373
10
245.89854440616318
20
833.16883948125019
10
245.89799508043131
20
833.16866099450044
10
245.89799508180417
20
809.66866099443928
10
255.89799508180408
20
809.66866099443905
10
255.8979950818042
20
806.66932900614142
10
245.89854440774417
20
806.66932900614165
10
245.8985444077442
20
806.66866099443928
10
245.89799508180417
20
806.66866099443928
10
245.89799508325538
20
783.16866099450044
10
268.24782321671159
20
775.90676162801674
10
268.24807199640122
20
775.90752729317205
10
268.2483725427067
20
775.90742963975754
10
271.3382937071213
20
785.41722913751528
10
274.19116270924928
20
784.49027580775794
0
LWPOLYLINE
5
135
100
AcDbEntity
8
0
100
AcDbPolyline
90
16
70
1
43
0.0
10
341.96682648537745
20
775.61931740990872
42
0.1980661089778985
10
350.13836127267768
20
788.49181971238988
10
354.4792443341691
20
813.10792552404848
10
345.02422084309512
20
814.77510128734139
10
343.31890640509414
20
805.10217882742313
10
340.36443639735603
20
805.62285816576446
10
342.0696841082281
20
815.29606583500004
10
334.78442866617559
20
816.58065294510652
10
331.88338566133586
20
800.1289692708317
42
-0.19891308313464101
10
323.6582450618547
20
787.21915923743506
10
310.01430701236092
20
777.6663658565019
10
315.01853267265346
20
770.51946411138806
10
323.16871152824376
20
776.32056722987147
10
324.94035612151498
20
773.78403162221412
10
316.73924148923379
20
768.06199362966458
10
321.48569912285222
20
761.28322931174341
0
LWPOLYLINE
5
136
100
AcDbEntity
8
0
100
AcDbPolyline
90
16
70
1
43
0.0
10
396.28771881936177
20
788.71569192162735
42
0.1980661089778985
10
404.45925360666195
20
801.58819422410852
10
408.80013666815341
20
826.20430003576701
10
399.34511317707944
20
827.87147579906002
10
397.63979873907851
20
818.19855333914177
10
394.68532873134029
20
818.71923267748321
10
396.39057644221248
20
828.39244034671867
10
389.1053210001599
20
829.67702745682516
10
386.20427799532024
20
813.22534378255045
42
-0.19891308313463663
10
377.97913739583913
20
800.3155337491537
10
364.33519934634523
20
790.76274036822053
10
369.33942500663784
20
783.6158386231067
10
377.48960386222802
20
789.41694174159011
10
379.2612484554993
20
786.88040613393287
10
371.06013382321817
20
781.15836814138311
10
375.8065914568366
20
774.37960382346193
0
LWPOLYLINE
5
137
100
AcDbEntity
8
0
100
AcDbPolyline
90
16
70
1
43
0.0
10
342.19632048727885
20
767.72310507544307
42
0.19806610897789975
10
334.02478569997862
20
754.85060277296168
10
329.68390263848721
20
730.23449696130319
10
339.13892612956118
20
728.56732119801018
10
340.84424056756222
20
738.24024365792854
10
343.79871057530033
20
737.71956431958699
10
342.09346286442826
20
728.04635665035164
10
349.37871830648078
20
726.76176954024515
10
352.27976131132039
20
743.21345321451986
42
-0.19891308313463085
10
360.50490191080149
20
756.12326324791661
10
374.14883996029545
20
765.67605662884966
10
369.1446143000029
20
772.82295837396362
10
360.9944354444126
20
767.0218552554802
10
359.22279085114133
20
769.55839086313745
10
367.42390548342257
20
775.28042885568721
10
362.67744784980408
20
782.05919317360826
0
LWPOLYLINE
5
138
100
AcDbEntity
8
0
100
AcDbPolyline
90
16
70
1
43
0.0
10
391.30849111753889
20
730.30764138451798
42
0.1980661089778985
10
399.48002590483907
20
743.18014368699914
10
403.82090896633053
20
767.79624949865763
10
394.36588547525662
20
769.46342526195065
10
392.66057103725558
20
759.79050280203239
10
389.70610102951747
20
760.31118214037383
10
391.41134874038954
20
769.9843898096093
10
384.12609329833697
20
771.26897691971578
10
381.2250502934973
20
754.81729324544119
42
-0.19891308313463582
10
372.99990969401625
20
741.90748321204455
10
359.35597164452236
20
732.35468983111116
10
364.3601973048149
20
725.20778808599732
10
372.5103761604052
20
731.00889120448073
10
374.28202075367642
20
728.47235559682349
10
366.08090612139517
20
722.75031760427373
10
370.82736375501372
20
715.97155328635256
0
LWPOLYLINE
5
139
100
AcDbEntity
8
0
100
AcDbPolyline
90
16
70
1
43
0.0
10
423.58671987730452
20
719.25423562279911
42
0.19806610897789975
10
431.75825466460481
20
732.12673792528051
10
436.09913772609616
20
756.74284373693899
10
426.64411423502213
20
758.41001950023178
10
424.93879979702115
20
748.73709704031376
10
421.98432978928309
20
749.25777637865508
10
423.68957750015517
20
758.93098404789043
10
416.40432205810271
20
760.21557115799715
10
413.50327905326299
20
743.76388748372233
42
-0.19891308313463144
10
405.27813845378193
20
730.8540774503258
10
391.63420040428804
20
721.30128406939252
10
396.63842606458047
20
714.15438232427857
10
404.78860492017083
20
719.95548544276198
10
406.56024951344205
20
717.41894983510497
10
398.35913488116091
20
711.6969118425551
10
403.10559251477923
20
704.91814752463381
0
LWPOLYLINE
5
140
100
AcDbEntity
8
0
100
AcDbPolyline
90
16
70
1
43
0.0
10
365.25391732972679
20
704.31923544653671
42
0.19806610897789975
10
357.0823825424265
20
691.44673314405532
10
352.74149948093509
20
666.83062733239694
10
362.19652297200912
20
665.16345156910393
10
363.9018374100101
20
674.83637402902218
10
366.85630741774821
20
674.31569469068063
10
365.15105970687608
20
664.6424870214455
10
372.43631514892866
20
663.35789991133868
10
375.33735815376826
20
679.8095835856135
42
-0.19891308313463663
10
383.56249875324943
20
692.71939361901013
10
397.20643680274338
20
702.27218699994341
10
392.20221114245078
20
709.41908874505725
10
384.05203228686048
20
703.61798562657384
10
382.28038769358926
20
706.15452123423097
10
390.48150232587039
20
711.87655922678096
10
385.73504469225202
20
718.65532354470201
0
LWPOLYLINE
5
141
100
AcDbEntity
8
0
100
AcDbPolyline
90
12
70
1
43
0.0
10
423.91533301605716
20
653.2435514831958
10
423.91565262340441
20
663.04017538008225
10
426.91565261542007
20
663.04039425420854
10
426.91565896014311
20
653.24355148319569
10
436.12673762981592
20
653.2435514831958
10
436.12849709256659
20
703.23469304296452
10
427.465319407778
20
703.23853140349775
10
427.53892944570873
20
693.2349864794287
10
424.44249716564468
20
693.23988664517333
10
424.46531970223936
20
703.23986060173047
10
416.1377287637626
20
703.24355027514559
10
416.12673762981603
20
653.2435514831958
0
LWPOLYLINE
5
142
100
AcDbEntity
8
0
100
AcDbPolyline
90
12
70
1
43
0.0
10
450.24898169769801
20
645.05089401249268
10
450.24930130504521
20
654.84751790937912
10
453.24930129706092
20
654.84773678350552
10
453.2493076417839
20
645.05089401249279
10
462.46038631145677
20
645.05089401249268
10
462.46214577420744
20
695.04203557226128
10
453.79896808941879
20
695.04587393279451
10
453.87257812734953
20
685.04232900872557
10
450.77614584728542
20
685.04722917447009
10
450.79896838388015
20
695.04720313102723
10
442.47137744540333
20
695.05089280444236
10
442.46038631145677
20
645.05089401249268
0
LWPOLYLINE
5
143
100
AcDbEntity
8
0
100
AcDbPolyline
90
12
70
1
43
0.0
10
450.24460159801401
20
711.1931142228558
10
453.24460159002967
20
711.19333309698209
10
453.24460793475271
20
701.39649032596935
10
462.45568660442558
20
701.39649032596935
10
462.45744606717619
20
751.38763188573785
10
453.7942683823876
20
751.39147024627107
10
453.86787842031828
20
741.38792532220214
10
450.77144614025428
20
741.39282548794665
10
450.79426867684896
20
751.39279944450391
10
442.46667773837214
20
751.39648911791915
10
442.45568660442558
20
701.39649032596935
10
450.24428199066676
20
701.39649032596935
0
LWPOLYLINE
5
144
100
AcDbEntity
8
0
100
AcDbPolyline
90
12
70
1
43
0.0
10
454.66337181792687
20
807.73762425736413
10
454.66305221057962
20
797.94100036047757
10
451.66305221856408
20
797.94078148635117
10
451.66304587384104
20
807.73762425736413
10
442.45196720416811
20
807.73762425736413
10
442.4502077414175
20
757.74648269759541
10
451.11338542620615
20
757.74264433706219
10
451.03977538827542
20
767.74618926113124
10
454.13620766833947
20
767.74128909538661
10
454.11338513174479
20
757.74131513882935
10
462.44097607022155
20
757.73762546541423
10
462.45196720416811
20
807.7376242573639
0
LWPOLYLINE
5
145
100
AcDbEntity
8
0
100
AcDbPolyline
90
16
70
1
43
0.0
10
377.82506397686211
20
659.37886679419307
42
0.19806610897789975
10
369.65352918956182
20
646.50636449171179
10
365.31264612807047
20
621.89025868005331
10
374.76766961914444
20
620.22308291676029
10
376.47298405714537
20
629.89600537667854
10
379.42745406488348
20
629.37532603833711
10
377.7222063540114
20
619.70211836910175
10
385.00746179606386
20
618.41753125899504
10
387.90850480090353
20
634.86921493326986
42
-0.19891308313463754
10
396.13364540038469
20
647.77902496666661
10
409.77758344987865
20
657.33181834759978
10
404.7733577895861
20
664.47872009271362
10
396.6231789339958
20
658.6776169742302
10
394.85153434072458
20
661.21415258188733
10
403.05264897300572
20
666.93619057443721
10
398.30619133938734
20
673.71495489235838
0
LWPOLYLINE
5
146
100
AcDbEntity
8
0
100
AcDbPolyline
90
12
70
1
43
0.0
10
444.43205683386145
20
614.1386301351979
10
434.63543293697501
20
614.13894974254515
10
434.63521406284872
20
617.13894973456081
10
444.43205683386145
20
617.13895607928384
10
444.43205683386145
20
626.35003474895666
10
394.44091527409284
20
626.35179421170733
10
394.43707691355968
20
617.68861652691862
10
404.44062183762867
20
617.76222656484936
10
404.43572167188404
20
614.66579428478542
10
394.43574771532678
20
614.68861682138004
10
394.43205804191166
20
606.36102588290328
10
444.4320568338614
20
606.35003474895666
0
LWPOLYLINE
5
147
100
AcDbEntity
8
0
100
AcDbPolyline
90
16
70
1
43
0.0
10
352.7508230674087
20
620.68608987084622
42
0.19806610897790011
10
360.92235785470899
20
633.5585921733275
10
365.26324091620035
20
658.17469798498587
10
355.80821742512637
20
659.84187374827889
10
354.10290298712539
20
650.16895128836052
10
351.14843297938728
20
650.68963062670207
10
352.85368069025935
20
660.36283829593742
10
345.56842524820684
20
661.64742540604402
10
342.66738224336723
20
645.19574173176932
42
-0.19891308313463837
10
334.44224164388606
20
632.28593169837245
10
320.79830359439211
20
622.7331383174394
10
325.80252925468471
20
615.58623657232545
10
333.95270811027501
20
621.38733969080886
10
335.72435270354623
20
618.85080408315173
10
327.52323807126504
20
613.12876609060186
10
332.26969570488347
20
606.3500017726808
0
LWPOLYLINE
5
148
100
AcDbEntity
8
0
100
AcDbPolyline
90
39
70
1
43
0.0
10
277.20942172072336
20
613.61123632043837
10
299.55924985396376
20
606.34933695389475
10
299.55974741349769
20
606.3500217858417
10
299.55979918029124
20
606.35000496579084
10
313.37275260776045
20
625.36190433444699
10
305.28258266454043
20
631.23975685754431
10
307.04543097495764
20
633.66610940082091
10
315.13555903862692
20
627.78828730594091
10
315.13606648448172
20
627.78898574524123
10
315.13610836465796
20
627.78895531751209
10
328.94906179226189
20
646.80085468646541
10
315.13610836216316
20
665.81275405323981
10
307.04593841874049
20
659.93490153076573
10
305.28271053297306
20
662.36177651406422
10
313.37220327924615
20
668.23913702467826
10
313.37207540832657
20
668.23931302390019
10
313.37275260533693
20
668.23980503632811
10
299.55979917498559
20
687.2517044032852
10
277.20997104264995
20
679.98980503402458
10
277.21011491042333
20
679.9893622545469
10
277.20942171677098
20
679.98913702227583
10
280.29944779259534
20
670.47901463909125
10
277.44697143748874
20
669.55218888817581
10
274.35680149382199
20
679.06275405090059
10
252.00697336124139
20
671.80085468141942
10
252.00697336124139
20
671.80036515670599
10
252.00642403550961
20
671.80018666995602
10
252.00642403688238
20
648.30018666989508
10
262.00642403688238
20
648.30018666989474
10
262.00642403688244
20
645.30085468159723
10
252.00697336282241
20
645.30085468159757
10
252.00697336282244
20
645.30018666989508
10
252.00642403688246
20
645.30018666989508
10
252.00642403833359
20
621.80018666995625
10
274.35625217178989
20
614.53828730347243
10
274.35650095147952
20
614.53905296862774
10
274.35680149778494
20
614.53895531521346
10
277.44672266219959
20
624.04875481297108
10
280.29959166432758
20
623.12180148321363
0
LWPOLYLINE
5
149
100
AcDbEntity
8
0
100
AcDbPolyline
90
16
70
1
43
0.0
10
342.90880239683582
20
681.10311257592434
42
0.19806610897789975
10
351.08033718413606
20
693.97561487840562
10
355.42122024562741
20
718.59172069006399
10
345.96619675455344
20
720.25889645335701
10
344.2608823165524
20
710.58597399343864
10
341.3064123088144
20
711.10665333178019
10
343.01166001968647
20
720.77986100101566
10
335.72640457763396
20
722.06444811112203
10
332.82536157279424
20
705.61276443684744
42
-0.19891308313464379
10
324.60022097331307
20
692.70295440345058
10
310.95628292381929
20
683.15016102251752
10
315.96050858411178
20
676.00325927740357
10
324.11068743970213
20
681.80436239588698
10
325.88233203297335
20
679.26782678822974
10
317.68121740069216
20
673.54578879567998
10
322.42767503431054
20
666.76702447775892
0
LWPOLYLINE
5
150
100
AcDbEntity
8
0
100
AcDbPolyline
90
39
70
1
43
0.0
10
297.63762417771409
20
759.68212407181409
10
275.28779604447368
20
766.94402343835782
10
275.28729848493975
20
766.94333860641086
10
275.28724671814626
20
766.94335542646161
10
261.474293290677
20
747.93145605780546
10
269.56446323389702
20
742.05360353470826
10
267.8016149234798
20
739.62725099143142
10
259.71148685981058
20
745.50507308631154
10
259.71097941395567
20
745.50437464701122
10
259.71093753377949
20
745.50440507474036
10
245.89798410617558
20
726.49250570578715
10
259.71093753627429
20
707.48060633901275
10
267.80110747969701
20
713.35845886148672
10
269.56433536546444
20
710.93158387818835
10
261.47484261919129
20
705.05422336757431
10
261.47497049011099
20
705.05404736835226
10
261.47429329310052
20
705.05355535592446
10
275.28724672345191
20
686.04165598896725
10
297.63707485578755
20
693.30355535822787
10
297.63693098801417
20
693.30399813770555
10
297.63762418166652
20
693.30422336997663
10
294.54759810584216
20
702.81434575316121
10
297.40007446094876
20
703.74117150407653
10
300.49024440461551
20
694.23060634135197
10
322.84007253719614
20
701.49250571083314
10
322.84007253719602
20
701.49299523554646
10
322.84062186292795
20
701.49317372229643
10
322.84062186155501
20
724.99317372235748
10
312.84062186155512
20
724.99317372235782
10
312.84062186155501
20
727.99250571065511
10
322.84007253561504
20
727.99250571065511
10
322.84007253561498
20
727.99317372235748
10
322.84062186155501
20
727.99317372235748
10
322.84062186010379
20
751.49317372229632
10
300.49079372664767
20
758.75507308878002
10
300.49054494695793
20
758.75430742362482
10
300.4902444006525
20
758.75440507703911
10
297.40032323623791
20
749.24460557928137
10
294.54745423410992
20
750.17155890903894
0
LWPOLYLINE
5
151
100
AcDbEntity
8
0
100
AcDbPolyline
90
39
70
1
43
0.0
10
209.2316690351764
20
661.7529446944618
10
231.58149716841677
20
654.49104532791819
10
231.5819947279507
20
654.49173015986503
10
231.58204649474419
20
654.49171333981428
10
245.39499992221346
20
673.50361270847043
10
237.30482997899344
20
679.38146523156774
10
239.06767828941065
20
681.80781777484458
10
247.15780635307993
20
675.92999567996435
10
247.15831379893478
20
675.93069411926467
10
247.158355679111
20
675.93066369153564
10
260.9713091067149
20
694.94256306048885
10
247.15835567661614
20
713.95446242726325
10
239.0681857331935
20
708.07660990478917
10
237.30495784742607
20
710.50348488808766
10
245.39445059369916
20
716.38084539870169
10
245.39432272277949
20
716.38102139792363
10
245.39499991979
20
716.38151341035154
10
231.5820464894386
20
735.39341277730864
10
209.23221835710294
20
728.13151340804802
10
209.23236222487631
20
728.13107062857046
10
209.23166903122399
20
728.13084539629926
10
212.32169510704836
20
718.62072301311468
10
209.4692187519417
20
717.69389726219947
10
206.379048808275
20
727.20446242492403
10
184.02922067569443
20
719.94256305544263
10
184.02922067569446
20
719.94207353072954
10
184.02867134996268
20
719.94189504397934
10
184.02867135133539
20
696.44189504391852
10
194.02867135133539
20
696.44189504391818
10
194.02867135133548
20
693.44256305562067
10
184.02922067727545
20
693.44256305562101
10
184.02922067727548
20
693.44189504391852
10
184.0286713513355
20
693.44189504391852
10
184.0286713527866
20
669.9418950439798
10
206.37849948624284
20
662.67999567749598
10
206.3787482659325
20
662.68076134265118
10
206.37904881223793
20
662.68066368923678
10
209.46896997665255
20
672.19046318699441
10
212.32183897878059
20
671.26350985723707
0
LWPOLYLINE
5
152
100
AcDbEntity
8
0
100
AcDbPolyline
90
12
70
1
43
0.0
10
245.65643224076246
20
623.17996619476821
10
235.85980834387598
20
623.18028580211546
10
235.85958946974969
20
626.18028579413112
10
245.65643224076246
20
626.18029213885416
10
245.65643224076246
20
635.39137080852709
10
195.66529068099385
20
635.39313027127764
10
195.66145232046068
20
626.72995258648905
10
205.66499724452967
20
626.80356262441978
10
205.6600970787851
20
623.70713034435585
10
195.6601231222279
20
623.72995288095035
10
195.65643344881272
20
615.40236194247359
10
245.65643224076246
20
615.39137080852697
0
LWPOLYLINE
5
153
100
AcDbEntity
8
0
100
AcDbPolyline
90
39
70
1
43
0.0
10
189.99167880080142
20
744.65569534550355
10
212.34150693404186
20
737.39379597895993
10
212.34200449357576
20
737.39448081090688
10
212.34205626036928
20
737.39446399085591
10
226.15500968783851
20
756.40636335951217
10
218.06483974461852
20
762.28421588260949
10
219.82768805503571
20
764.71056842588621
10
227.91781611870499
20
758.83274633100598
10
227.91832356455984
20
758.8334447703063
10
227.91836544473608
20
758.83341434257727
10
241.73131887233995
20
777.84531371153048
10
227.91836544224122
20
796.85721307830488
10
219.82819549881853
20
790.97936055583091
10
218.06496761305112
20
793.40623553912928
10
226.15446035932425
20
799.28359604974332
10
226.15433248840458
20
799.28377204896537
10
226.15500968541505
20
799.28426406139329
10
212.34205625506365
20
818.29616342835038
10
189.99222812272802
20
811.03426405908976
10
189.9923719905014
20
811.03382127961197
10
189.99167879684904
20
811.03359604734101
10
193.08170487267341
20
801.52347366415643
10
190.22922851756678
20
800.5966479132411
10
187.13905857390006
20
810.10721307596566
10
164.78923044131946
20
802.84531370648438
10
164.78923044131949
20
802.84482418177117
10
164.78868111558768
20
802.84464569502109
10
164.78868111696048
20
779.34464569496015
10
174.78868111696045
20
779.34464569495981
10
174.7886811169605
20
776.34531370666241
10
164.78923044290048
20
776.34531370666264
10
164.78923044290053
20
776.34464569496015
10
164.7886811169605
20
776.34464569496015
10
164.78868111841169
20
752.84464569502143
10
187.13850925186793
20
745.58274632853772
10
187.13875803155759
20
745.58351199369281
10
187.13905857786304
20
745.58341434027852
10
190.22897974227763
20
755.09321383803604
10
193.08184874440565
20
754.1662605082787
0
LWPOLYLINE
5
154
100
AcDbEntity
8
0
100
AcDbPolyline
90
39
70
1
43
0.0
10
122.01291903517628
20
696.51395136763904
10
144.36274716841666
20
689.25205200109542
10
144.3632447279505
20
689.25273683304215
10
144.36329649474408
20
689.2527200129914
10
158.17624992221334
20
708.26461938164755
10
150.08607997899333
20
714.14247190474487
10
151.84892828941059
20
716.56882444802159
10
159.93905635307988
20
710.69100235314158
10
159.93956379893467
20
710.69170079244191
10
159.93960567911088
20
710.69167036471276
10
173.75255910671478
20
729.70356973366597
10
159.93960567661611
20
748.71546910044026
10
151.84943573319339
20
742.83761657796629
10
150.08620784742604
20
745.26449156126489
10
158.17570059369913
20
751.14185207187893
10
158.17557272277946
20
751.14202807110087
10
158.17624991978994
20
751.14252008352867
10
144.36329648943854
20
770.15441945048588
10
122.01346835710289
20
762.89252008122526
10
122.01361222487627
20
762.89207730174758
10
122.01291903122389
20
762.8918520694765
10
125.10294510704824
20
753.38172968629169
10
122.25046875194167
20
752.45490393537671
10
119.16029880827494
20
761.96546909810127
10
96.810470675694305
20
754.7035697286201
10
96.810470675694305
20
754.70308020390667
10
96.809921349962522
20
754.70290171715669
10
96.809921351335362
20
731.20290171709576
10
106.80992135133529
20
731.20290171709541
10
106.80992135133543
20
728.20356972879779
10
96.810470677275404
20
728.20356972879813
10
96.810470677275475
20
728.20290171709553
10
96.809921351335433
20
728.20290171709553
10
96.809921352786574
20
704.70290171715669
10
119.15974948624275
20
697.4410023506731
10
119.15999826593236
20
697.44176801582842
10
119.16029881223785
20
697.4416703624139
10
122.25021997665245
20
706.95146986017164
10
125.10308897878048
20
706.0245165304143
0
LWPOLYLINE
5
155
100
AcDbEntity
8
0
100
AcDbPolyline
90
39
70
1
43
0.0
10
57.903055753926509
20
749.97942072799049
10
80.252883887166888
20
742.71752136144687
10
80.2533814467008
20
742.7182061933936
10
80.253433213494318
20
742.71818937334285
10
94.066386640963557
20
761.73008874199911
10
85.976216697743553
20
767.60794126509631
10
87.73906500816075
20
770.03429380837315
10
95.829193071830048
20
764.15647171349292
10
95.829700517684913
20
764.15717015279324
10
95.829742397861111
20
764.1571397250641
10
109.642695825465
20
783.16903909401742
10
95.829742395366253
20
802.18093846079182
10
87.73957245194353
20
796.30308593831785
10
85.976344566176195
20
798.72996092161634
10
94.06583731244929
20
804.60732143223026
10
94.065709441529606
20
804.60749743145232
10
94.066386638540109
20
804.60798944388
10
80.253433208188696
20
823.61988881083732
10
57.903605075853051
20
816.35798944157671
10
57.903748943626425
20
816.35754666209891
10
57.903055749974044
20
816.35732142982783
10
60.993081825798399
20
806.84719904664325
10
58.140605470691824
20
805.92037329572793
10
55.050435527025101
20
815.4309384584526
10
32.700607394444461
20
808.16903908897132
10
32.700607394444461
20
808.16854956425811
10
32.700058068712679
20
808.16837107750803
10
32.700058070085511
20
784.66837107744709
10
42.700058070085447
20
784.66837107744686
10
42.700058070085589
20
781.66903908914935
10
32.700607396025561
20
781.66903908914958
10
32.700607396025632
20
781.66837107744709
10
32.700058070085589
20
781.66837107744709
10
32.700058071536724
20
758.16837107750848
10
55.049886204992973
20
750.90647171102455
10
55.050134984682586
20
750.90723737617975
10
55.050435530988082
20
750.90713972276546
10
58.140356695402673
20
760.41693922052309
10
60.993225697530704
20
759.48998589076564
0
LWPOLYLINE
5
156
100
AcDbEntity
8
0
100
AcDbPolyline
90
39
70
1
43
0.0
10
125.88181551955148
20
798.12108332564662
10
148.23164365279186
20
790.85918395910301
10
148.23214121232581
20
790.85986879104996
10
148.23219297911933
20
790.85985197099922
10
162.04514640658857
20
809.87175133965536
10
153.95497646336855
20
815.74960386275268
10
155.71782477378576
20
818.17595640602929
10
163.80795283745505
20
812.29813431114917
10
163.80846028330993
20
812.29883275044949
10
163.80850216348614
20
812.29880232272035
10
177.62145559109001
20
831.31070169167378
10
163.80850216099128
20
850.32260105844807
10
155.71833221756862
20
844.4447485359741
10
153.95510433180121
20
846.87162351927236
10
162.0445970780743
20
852.7489840298864
10
162.04446920715463
20
852.74916002910857
10
162.04514640416511
20
852.74965204153636
10
148.23219297381371
20
871.76155140849346
10
125.88236484147806
20
864.49965203923284
10
125.88250870925144
20
864.49920925975516
10
125.88181551559913
20
864.4989840274842
10
128.97184159142347
20
854.9888616442995
10
126.11936523631684
20
854.06203589338418
10
123.02919529265012
20
863.57260105610874
10
100.67936716006955
20
856.31070168662757
10
100.67936716006957
20
856.31021216191425
10
100.67881783433776
20
856.31003367516428
10
100.67881783571053
20
832.81003367510323
10
110.67881783571053
20
832.81003367510311
10
110.6788178357106
20
829.8107016868056
10
100.67936716165057
20
829.81070168680594
10
100.67936716165062
20
829.81003367510323
10
100.6788178357106
20
829.81003367510323
10
100.67881783716174
20
806.3100336751645
10
123.02864597061796
20
799.04813430868091
10
123.0288947503076
20
799.04889997383589
10
123.02919529661307
20
799.04880232042171
10
126.11911646102766
20
808.55860181817934
10
128.97198546315568
20
807.63164848842189
0
LWPOLYLINE
5
157
100
AcDbEntity
8
0
100
AcDbPolyline
90
12
70
1
43
0.0
10
18.570049064020733
20
833.35841791784571
10
18.569729456673517
20
823.56179402095916
10
15.56972946465784
20
823.56157514683309
10
15.569723119934833
20
833.35841791784583
10
6.3586444502619326
20
833.35841791784571
10
6.3568849875113038
20
783.36727635807711
10
15.020062672299963
20
783.36343799754388
10
14.946452634369257
20
793.36698292161304
10
18.04288491443323
20
793.36208275586841
10
18.02006237783861
20
783.36210879931116
10
26.34765331631538
20
783.35841912589603
10
26.358644450261941
20
833.35841791784571
0
LWPOLYLINE
5
158
100
AcDbEntity
8
0
100
AcDbPolyline
90
12
70
1
43
0.0
10
18.563152091364383
20
777.01151443477306
10
18.562832484017168
20
767.2148905378865
10
15.56283249200149
20
767.2146716637601
10
15.562826147278484
20
777.01151443477306
10
6.3517474776055831
20
777.01151443477306
10
6.3499880148549543
20
727.02037287500434
10
15.013165699643613
20
727.01653451447112
10
14.939555661712907
20
737.02007943854017
10
18.035987941776881
20
737.01517927279565
10
18.01316540518226
20
727.01520531623828
10
26.340756343659031
20
727.01151564282316
10
26.351747477605592
20
777.01151443477283
0
LWPOLYLINE
5
159
100
AcDbEntity
8
0
100
AcDbPolyline
90
12
70
1
43
0.0
10
18.626079337458172
20
680.35841283158277
10
18.625759730110957
20
670.56178893469621
10
15.62575973809528
20
670.56157006056992
10
15.625753393372273
20
680.35841283158277
10
6.4146747236993722
20
680.35841283158277
10
6.4129152609487434
20
630.36727127181416
10
15.076092945737402
20
630.36343291128105
10
15.002482907806696
20
640.3669778353501
10
18.09891518787067
20
640.36207766960547
10
18.076092651276049
20
630.36210371304821
10
26.40368358975282
20
630.35841403963309
10
26.414674723699385
20
680.35841283158277
0
LWPOLYLINE
5
160
100
AcDbEntity
8
0
100
AcDbPolyline
90
16
70
1
43
0.0
10
42.208954764622639
20
724.73827231177108
42
0.19806610897790011
10
34.037419977322344
20
711.8657700092898
10
29.696536915830972
20
687.24966419763132
10
39.151560406904977
20
685.5824884343383
10
40.856874844905917
20
695.25541089425656
10
43.811344852644041
20
694.73473155591523
10
42.106097141771954
20
685.06152388667965
10
49.391352583824428
20
683.77693677657317
10
52.292395588664142
20
700.22862045084798
42
-0.1989130831346364
10
60.517536188145286
20
713.13843048424474
10
74.161474237639098
20
722.6912238651779
10
69.157248577346593
20
729.83812561029163
10
61.007069721756295
20
724.03702249180822
10
59.235425128485062
20
726.57355809946557
10
67.436539760766223
20
732.29559609201533
10
62.690082127147804
20
739.07436040993639
0
LWPOLYLINE
5
161
100
AcDbEntity
8
0
100
AcDbPolyline
90
39
70
1
43
0.0
10
84.49693814255788
20
679.99047876745203
10
62.147110009317501
20
687.25237813399576
10
62.146612449783589
20
687.25169330204881
10
62.146560682990071
20
687.25171012209955
10
48.333607255520832
20
668.23981075344341
10
56.423777198740837
20
662.36195823034609
10
54.660928888323639
20
659.93560568706937
10
46.570800824654341
20
665.81342778194949
10
46.570293378799477
20
665.81272934264916
10
46.570251498623279
20
665.81275977037819
10
32.757298071019392
20
646.80086040142498
10
46.570251501118143
20
627.78896103465058
10
54.660421444540859
20
633.66681355712467
10
56.423649330308194
20
631.23993857382618
10
48.3341565840351
20
625.36257806321214
10
48.334284454954783
20
625.3624020639902
10
48.333607257944351
20
625.36191005156229
10
62.146560688295772
20
606.35001068460519
10
84.49638882063141
20
613.61191005386581
10
84.496244952858035
20
613.61235283334349
10
84.496938146510416
20
613.61257806561457
10
81.406912070686062
20
623.12270044879926
10
84.259388425792636
20
624.04952619971448
10
87.349558369459359
20
614.53896103698992
10
109.69938650204
20
621.80086040647109
10
109.69938650204
20
621.80134993118452
10
109.69993582777178
20
621.80152841793438
10
109.69993582639894
20
645.30152841799554
10
99.699935826398942
20
645.30152841799566
10
99.6999358263988
20
648.30086040629317
10
109.69938650045883
20
648.30086040629294
10
109.69938650045876
20
648.30152841799543
10
109.6999358263988
20
648.30152841799543
10
109.69993582494766
20
671.80152841793426
10
87.350107691491417
20
679.06342778441785
10
87.349858911801803
20
679.06266211926277
10
87.349558365496307
20
679.06275977267694
10
84.259637201081716
20
669.55296027491943
10
81.406768198953685
20
670.47991360467677
0
LWPOLYLINE
5
162
100
AcDbEntity
8
0
100
AcDbPolyline
90
39
70
1
43
0.0
10
141.25290926955148
20
613.61123632043837
10
163.60273740279186
20
606.34933695389475
10
163.60323496232576
20
606.35002178584159
10
163.60328672911925
20
606.35000496579073
10
177.41624015658851
20
625.36190433444699
10
169.3260702133685
20
631.23975685754419
10
171.08891852378571
20
633.66610940082091
10
179.17904658745499
20
627.78828730594091
10
179.17955403330984
20
627.78898574524123
10
179.17959591348605
20
627.78895531751209
10
192.99254934108995
20
646.80085468646541
10
179.1795959109912
20
665.81275405323981
10
171.08942596756856
20
659.93490153076573
10
169.32619808180112
20
662.36177651406422
10
177.41569082807422
20
668.23913702467826
10
177.41556295715469
20
668.23931302390019
10
177.41624015416511
20
668.23980503632799
10
163.60328672381371
20
687.2517044032852
10
141.25345859147808
20
679.98980503402458
10
141.2536024592514
20
679.9893622545469
10
141.2529092655991
20
679.98913702227583
10
144.34293534142347
20
670.47901463909113
10
141.49045898631681
20
669.55218888817581
10
138.40028904265009
20
679.06275405090059
10
116.05046091006952
20
671.80085468141942
10
116.05046091006955
20
671.80036515670599
10
116.04991158433774
20
671.80018666995602
10
116.0499115857105
20
648.30018666989508
10
126.0499115857105
20
648.30018666989474
10
126.04991158571056
20
645.30085468159723
10
116.05046091165053
20
645.30085468159757
10
116.05046091165057
20
645.30018666989486
10
116.04991158571056
20
645.30018666989486
10
116.04991158716172
20
621.80018666995613
10
138.39973972061796
20
614.53828730347243
10
138.39998850030759
20
614.53905296862763
10
138.40028904661307
20
614.53895531521346
10
141.49021021102766
20
624.04875481297097
10
144.34307921315568
20
623.12180148321363
0
ENDSEC
0
SECTION
2
OBJECTS
0
DICTIONARY
5
C
100
AcDbDictionary
3
ACAD_GROUP
350
D
3
ACAD_MLINESTYLE
350
17
0
DICTIONARY
5
D
100
AcDbDictionary
0
DICTIONARY
5
1A
330
C
100
AcDbDictionary
0
DICTIONARY
5
17
100
AcDbDictionary
0
ENDSEC
0
EOF
